wreckingpit - The Psychobilly Homepage
The Psychobilly Homepage December 12, 2017, 9:50 am
> Home > Tabs > Nekromantix - Nekrofilia
MAIN MENU
[Bands]
[Concerts]
[Flyers]
[Forum]
[Gallery]
[Links]
[Lyrics]
[News]
[Pictures]
[Reviews]
[Shop]
[Sounds]
[Tabs]
[Tattoos]

Search
wreckingpit.com:

PSYCHOBILLY TAB

Nekromantix - Nekrofilia


Instrument: guitar

Am F
E|-------------------|----------------------|
B|-------------------|----------------------|
G|-------------------|----------------------|
D|--2----------------|-----3------2-3--2-3--|
A|--0-----2-3---2-3--|-----3----------------|
E|-------------------|--1-------------------|

Am F
E|-------------------|--------------------|
B|-------------------|--------------------|
G|-------------------|--------------------|
D|--2----------------|-----3------2-3--5--|
A|--0-----2-3---2-3--|-----3--------------|
E|-------------------|--1-----------------|

C G
E|-----------------------|-------------------|
B|-----------------------|-------------------|
G|-----------------------|-------------------|
D|--5----3-2-------------|-------------------|
A|-----------3---3--5~~--|----3-2------5--4--|
E|-----------------------|---------3---3--2--|

F Am G Am G
E|------1---------------|---------------------|---------------------|
B|------1---------------|---------------------|---------------------|
G|------2---------------|---------------------|---------------------|
D|------3---------------|--2---------------0--|--2---------------0--|
A|--3---------2-3--2-3--|--0------------3-----|--0------------3-----|
E|--1-------------------|---------3--1--------|---------3--1--------|


Am
My sweet baby, she past away
F
I can't forget the things she used to say
Am
It's the only thing for me to do
F
I have to leave, but I'll sure miss you

C G F# F
Baby baby, she wrote to me - Mine you'll forever be
Am G Am G
My Nekrofelia
(My Nekrofelia) (My Nekrofelia)

We used to play this innocent game
At the graveyard we often came
Naked in the night all alone
Lying in the grass, beside the tombstone

Baby baby, she wrote to me...

(Solo - Repeat intro-theme and play it an octave higher)

My Nekrofelia...

A wicked world of any kind
Yet the only thing on her mind
Was a deathwish I couldn't understand
Why she took off to Never Neverland

Baby baby...

  AMAZON PICKS


Wreckingpit - The Psychobilly Homepage December 2017
[Credits] [Link] [Contact] [FAQ]