wreckingpit - The Psychobilly Homepage
The Psychobilly Homepage December 16, 2017, 10:02 pm
> Home > Tabs > Krewmen - The Bug Of Planet Zee
MAIN MENU
[Bands]
[Concerts]
[Flyers]
[Forum]
[Gallery]
[Links]
[Lyrics]
[News]
[Pictures]
[Reviews]
[Shop]
[Sounds]
[Tabs]
[Tattoos]

Search
wreckingpit.com:

PSYCHOBILLY TAB

Krewmen - The Bug Of Planet Zee

Tabbed by: Johnny Hound
Instrument: guitar

RIFF A
(play twice)
E|---------------------------------------------------------------------------------|
B|------------1--3--1--------------------------------1--3----------------------|
G|--2-2-2-2-----------2--2--2-2-2-----2-2-2-2-----------2--2--2-2-2--|
D|---------------------------------------------------------------------------------|
A|---------------------------------------------------------------------------------|
E|---------------------------------------------------------------------------------|
light p.m.** ********** ****** ***********


INTRO

E|---------------------------------------------------------------------------|
B|---------------------------------------------------------------------------|
G|--2-2-2-2-2-2-2--2-2-2-2-2-2--2-2-2-2-2-2--2-2-2-2-2-2--|
D|--2-2-2-2-2-2-2--2-2-2-2-2-2--2-2-2-2-2-2--2-2-2-2-2-2--|
A|--0-0-0-0-0-0-0--0-0-0-0-0-0--0-0-0-0-0-0--0-0-0-0-0-0--|
E|---------------------------------------------------------------------------|

VERSE INTRO
(Play Riff A over this 2X)***********************||
---------------------------------------------------------------------------------------|
--------------------------------------------------------------------------------------|
-2-2-2-2-2-2--2-2-2-2-2-2--2-2-2-2-2-2--2-2-2-2-2-2---2-2-2-2-2-|
-2-2-2-2-2-2--2-2-2-2-2-2--2-2-2-2-2-2--2-2-2-2-2-2---2-2-2-2-2-|
-0-0-0-0-0-0--0-0-0-0-0-0--0-0-0-0-0-0--0-0-0-0-0-0---0-0-0-0-0-|
--------------------------------------------------------------------------------------|

Lets Goo
E|--------------------------------------------------------
B|---------------------------------------------------------
G|--2-2-----------------------------------------2-------
D|--2-2-----------------------------------------2------ (play 3 times)
A|--0-0-----------------------------------------0------
E|-------3-3--2-2--1-1--0-0--1-1--2-2--3-3-----

-----------------------------------------------------------------------|
-----------------------------------------------------------------------|
--2---2----2--2--2---2--2--2---2-2-2--2--2---2-2-2--2--2--|
--2---2----2--2--2---2--2--2---2-2-2--2--2---2-2-2--2--2--|
--0---0----0--3--0---0--3--0---0-0-0--3--0---0-0-0--3--0--|
-----------------------------------------------------------------------|

VERSE

E|-----------------------------------------
B|-----------------------------------------
G|--2-2---------------------------2-------
D|--2-2---------------------------2------- (play 8 times)
A|--0-0---------------------------0-------
E|-------3-3--2-2--1-1--0-0--1----3----

(In between VERSES play VERSE INTRO minus the LETS GO part)

SOLO: solo stays on A, play something minor pentatonic.
--------------------------------------------------------------------------------------------------------

Meteors- Mutant Rock
---------------------------
tabbed by Johnny Hound

INTRO

E|------------------------------------------------------------------------------|
B|------------------------------------------------------------------------------|
G|-----------------------------------------------------------------------------|
D|-----------------------------------------------------------------------------|
A|--1-1-1-1-1-2-----1-1-1-1-1-2-----1-1-1-1-1-2------2-1-0-----|
E|-----------------0-----------------0-----------------0------------3-------|
VERSE

E|---------------------------------------------------------------------
B|---------------------------------------------------------------------
G|---------------------------------------------------------------------
D|--2--2-2-2-2---2--2-2-2-2---2--2-2-2-2---2--2-2-2-2--- (repeat as
A|--2--2-2-2-2---2--2-2-2-2---2--2-2-2-2---2--2-2-2-2--- neccesary)
E|--0--3-3-3-3---0--3-3-3-3---0--3-3-3-3---0--3-3-3-3---

(little verse riff)
during the verse this riff is played after the above succesion.

"and we wondered where it came from"
E|-------------------------------|
B|-------------------------------|
G|--4-4-4-4-4----------------|
D|--4-4-4-4-4----------------|
A|--2-2-2-2-2--2-1-0-------|
E|-----------------------3-------|

CHORUS

E|--------------------------------------------------------------------------------------
B|-------------------------------------------------------------------------------------
G|----------------------------------------2--2-2-2-2--2---------------------------
D|--2--2-2-2-2--2----2--2-2-2-2--2---2--2-2-2-2--2---2--2-2-2-2--2---
A|--2--2-2-2-2--2----2--2-2-2-2--2---0--3-3-3-3--0---2--2-2-2-2--2---
E|--0--3-3-3-3--0----0--3-3-3-3--0----------------------0--3-3-3-3--0---

E|-------------------------------------|
B|-------------------------------------|
G|--4-4-4-4-4----------------------|
D|--4-4-4-4-4----------------------|
A|--2-2-2-2-2--2-1-0-------------|
E|----------------------3--------------|


For the little break and the solo the rhythm guitar is just playing the
above chorus.

  AMAZON PICKS


Wreckingpit - The Psychobilly Homepage December 2017
[Credits] [Link] [Contact] [FAQ]