wreckingpit - The Psychobilly Homepage
The Psychobilly Homepage December 17, 2017, 4:02 am
> Home > Tabs > Mad Heads - I Wait
MAIN MENU
[Bands]
[Concerts]
[Flyers]
[Forum]
[Gallery]
[Links]
[Lyrics]
[News]
[Pictures]
[Reviews]
[Shop]
[Sounds]
[Tabs]
[Tattoos]

Search
wreckingpit.com:

PSYCHOBILLY TAB

Mad Heads - I Wait

Tabbed by: Vadim lazarev
Homepage: http://www.uniondead.com/
Instrument:

---2----2----2----2----3-----3---------------------------------------3s5-3-
--3-3--3-1--3-3--3-3--3-3---3-3--3-2-3s5-3-2------0-----3-3-2-3s5-3-2------
-4----4---------4----------------4-3-4s6-4-3-0---0-0---4--4-3-4s6-4-3------
-----------4---------5-----5--------------------2-----5--------------------
---------------------------------------------------------------------------
---------------------------------------------------------------------------

-------------------2---2----2----2--2s7---3-7-9-10.9.7-10.9.7-10.9.7-13s7-
10
---3---3---3---3--3-3-3-3--3-3--3-3----------------------------------------
-
--4-3-4---4---4------4---------4-------------------------------------------
-
-5---4--43--32--20--------4------------------------------------------------
-
---------------------------------------------------------------------------
-
---------------------------------------------------------------------------
-

-5.3.2.0-----------------------------------1-
--------3.2.0---5.3.2.0-------------3---3--1-
-------------3---------3.0---------4---4---3-
--------------------------4-3-4---5---3----4-
---------------------------------------------
---------------------------------------------

s = slide
.. = is my symbol for play it as fast as you wish/can

Paste this into Notepad, it will look better. I promise.
Comments? Corrections? Send them all along with plenty of heart warming
insults to vadim at uniondead dot com

  AMAZON PICKS


Wreckingpit - The Psychobilly Homepage December 2017
[Credits] [Link] [Contact] [FAQ]