wreckingpit - The Psychobilly Homepage
The Psychobilly Homepage December 12, 2017, 9:45 am
> Home > Tabs > Hangmen, The - The Evil's Calling
MAIN MENU
[Bands]
[Concerts]
[Flyers]
[Forum]
[Gallery]
[Links]
[Lyrics]
[News]
[Pictures]
[Reviews]
[Shop]
[Sounds]
[Tabs]
[Tattoos]

Search
wreckingpit.com:

PSYCHOBILLY TAB

Hangmen, The - The Evil's Calling

Tabbed by: Ulysses
Emailaddress: communicatewithulysses@yahoo.com
Homepage: http://www.notpunk.com
Instrument:

intro:
-----------------------------------------------------------------------
-----------------------------------------------------------------------
---5-7-8-7-5---5------4------------------------------------------------
-7-----------7---7-5----5--7-------------------------------------------
-----------------------------------------------------------------------
-----------------------------------------------------------------------

verse
---------------------------------0----------0--------------------------------------
----000-------------00-----------1--1-------1-------000-------------000------------
----000-------------00-----------2--2----2--2-------000-------------000------------
--------------0----------0-0-----2--2----2--2-----------------0----------0-0-------
------------2---2------------2---0-----0-0--0----0----------2---2------------2-----
--3-----3-3-------3----3---------------------------3------3-------3-----3----------


---0-------------------------------------------------------------------
---0-----0----------0------0---------0----0----------------------------
---0-----0----------0------0---------0----0----------------------------
---2-----0----------2------0---------2----0----------------------------
--------------0-----------------0---------------0----------------------
-0----0-3--3-2-2--0-----0-3--3-2-2--0--0-3--3-2--2---------------------


bridge 1st round
-----------------------------------------------------------------------
-----------------------------------------------------------------------
--------------------------------1--4--2--------------------------------
--------3-2---------------3-2-2----------------------------------------
---0-3-2----3-2--0-0--3-2----------------------------------------------
-----------------------------------------------------------------------


bridge 2nd time round
-----------------------------------------------------------------------
-----------------------------------------------------------------------
-----------------------------------------------------------------------
--------3-2---------------3-2-2--3-2-----------------------------------
---0-3-2----3-2--0-0--3-2----------------------------------------------
-----------------------------------------------------------------------

Loz's middle 8s
-----------------------------------------------------------------------
-----------------------------------------------------------------------
--7-----5----3----2-2-2------------------7-------3-----2---0-2---------
--7--7--5-5--3-3--2-2-2----repeat x 3----7-7-----3-3---2---0-2---------
--5-----3----1----0----------------------5-------1-----0-----0---------
-----------------------------------------------------------------------

-----------------------------------------------------------------------
-----------------------------------------------------------------------
-----------------------------------------------------------------------
--7-x-6-x-x-----------------------------------------------------------------
--7-x-6-x-x--4-4----2----0----4-----------------------------------------------------
--5-x-4-x-3--2-2--2-0-0-3--3--2--------------------------------------------------------

solo
--------0------8-7---------------0---------8-7------------------------------------------------
---10----10--------10------10------10----------10--12--12------------------12-----------------
-9----9-----9---------9--------9------9----------------12-11-10------------12-11-10-----10-12-
-----------------------------------------------------------------12-10-12------------12-------
----------------------------------------------------------------------------------------------
----------------------------------------------------------------------------------------------


--------0--------8-7-------8-7-----8-7------8-7-----8-7------------------------------------------------------------
---10-----10---------10--------10------10-------10------10----10---12----------------------------------------------
-9----9------9---------------------------------------------9-------12-11-10------10-12--13-13-12-10----10----------
------------------------------------------------------------------------------12--------------------12---12-12-10-7
-------------------------------------------------------------------------------------------------------------------
-------------------------------------------------------------------------------------------------------------------

----------------------------------------------------------------------0-3-0-----------------------------------------
---------0-0-0---------------------0-0-0--0-0------------------0-0--3-----------------------------------------------
-------0s3--3-3---2-2-0---------0-s4--4-4-3---2-0----------0-s3-3-3-------------------------------------------------
-----2-------------------------2-------------------------2----------------------------------------------------------
---2-------------------------2-------------------------2------------------------------------------------------------
-0-------------------------0-------------------------0--------------------------------------------------------------

  AMAZON PICKS


Wreckingpit - The Psychobilly Homepage December 2017
[Credits] [Link] [Contact] [FAQ]