wreckingpit - The Psychobilly Homepage
The Psychobilly Homepage December 13, 2017, 4:33 pm
> Home > Tabs > Guana Batz - Pile Driver Boogie
MAIN MENU
[Bands]
[Concerts]
[Flyers]
[Forum]
[Gallery]
[Links]
[Lyrics]
[News]
[Pictures]
[Reviews]
[Shop]
[Sounds]
[Tabs]
[Tattoos]

Search
wreckingpit.com:

PSYCHOBILLY TAB

Guana Batz - Pile Driver Boogie

Tabbed by: Johnny Hound
Instrument: guitar

INTRO

E|---------------------------------|
B|---------------------------------| (repeat till change to verse)
G|---------------------------------| (this riff is also played when the song
D|---------------------------------| goes to a bass riff break and it is
A|---------------------------------| also the outro)
E|---3--0--1--2--3--0--1--2--|

VERSE

E|--------------------------------|
B|--------------------------------|
G|--------------------------------| (repeat till you hear the key change,
D|--------------------------------| then go to VERSE B )
A|----------3--3--1--1---------|
E|---3--3----------------1--2--|

VERSE B part

E|-------------------------------|
B|-------------------------------|
G|-------------------------------| X2 (then go back to above verse)
D|-------------------------------|
A|---------5--5--3--3---------|
E|---5--5---------------3--4--|

CHORUS
(this rhythm is a little tricky, just listen to it a few times and youll get
it)
E|---------------------------------------------------------------------------------|
B|---------------------------------------------------------------------------------|
G|----5---5------------5---5-----------5---5---3---3----7-7-7-7-7-7-7---|
D|----5---5---5---5---5---5---5---5---5---5---3---3---7-7-7-7-7-7-7--|
A|----3---3---5---5---3---3---5---5---3---3---1---1---5-5-5-5-5-5-5--|
E|-------------3---3------------3---3--------------------------------------------|

SOLO

goes from C down to G back to C, play some pentatonic minor stuff.

  AMAZON PICKS


Wreckingpit - The Psychobilly Homepage December 2017
[Credits] [Link] [Contact] [FAQ]