wreckingpit - The Psychobilly Homepage
The Psychobilly Homepage December 16, 2017, 12:45 pm
> Home > Tabs > Guana Batz - Night Watch
MAIN MENU
[Bands]
[Concerts]
[Flyers]
[Forum]
[Gallery]
[Links]
[Lyrics]
[News]
[Pictures]
[Reviews]
[Shop]
[Sounds]
[Tabs]
[Tattoos]

Search
wreckingpit.com:

PSYCHOBILLY TAB

Guana Batz - Night Watch

Tabbed by: ulysses
Emailaddress: communicatewithulysses@yahoo.com
Homepage: http://www.notpunk.com
Instrument: guitar

White, Sardi, Osborne, Hancox.
guitarist: Stuart Osborne

intro:
|-----------------------------|--------------------------------------------------------------------------5-5---|
|-----------------------12-12-|------------------------------------------------------------------------4-4-4-4-|
|-----------------------12-12-|------------------------------------------------------------------------4-4-4-4-|
|-----------------------------|------------------------------------------------------------------------4-4-4-4-|
|-------2--- play twice ------|-0-0--5-5--0-0--3-3--0-0--2-2-3-3-2-2----2-2-----0-0-----4-4--5-4-4--2-2--------|
|-3-3-3-0---------------------|-------------------------------------0-0-----0-0-----0-0------------------------|

trem bar trem bar
|------------------------------------------------------------------------------------------------------------|
|-----2--5--5-5-5-----------------4-------------------4------------------------------------------------------|
|-2---2--5--5-5-5-----------------4-------------------4------------------------------------------------------|
|-2---2--5--5-5-5-----------------4-------------------4------------------------------------------------------|
|-0-0----3-------------2-2----0-0-2-------2-2-----0-0-2--------2---------------------------------------------|
|------------------0-0----0-0--------0-0------0-0--------3-3-3-0---------------------------------------------|


first verse
|-------------------------------------------------------------------------------------------------------------|
|-------------------------------------------------------------------------------------------------------------|
|-------------------------------------------------------------------------------------------------------------|
|-------------------------------------------------------------------------------------------------------------|
|------2-2-----0-0-----4-4--5-4--2-2------2-2-----0-0-----4-4-5-4-2-2--0-0--5-5-0-0-3-3-0-0-2-2-3-3-2-2-------|
|--0-0-----0-0-----0-0----------------0-0-----0-0-----0-0-----------------------------------------------------|

trem bar trem bar
|-------------------------------------------------------------------------------------------------------------|
|-----------------------------------4-4-4---------2------5-5-----------------4----------------4---------------|
|---------------------------------4-4-4-4-4-4---2-2-2--5-5-5-----------------4----------------4---------------|
|---------------------------------4-4-4-4-4-4---2-2-2--5-5-5-----------------4----------------4---------------|
|------2-2-----0-0-----4-4--5-4-4-2-2-----------0------3---------2-2----0-0--2-----2-2--0-0-0-2---------------|
|--0-0-----0-0-----0-0---------------------------------------0-0----0-0-------0-0-----0-----------------------|

second
|-------------------------------------------------------------------------------------------------------------|
|-------------------------------------------------------------------------------------------------------------|
|-------------------------------------------------------------------------------------------------------------|
|-------------------------------------------------------------------------------------------------------------|
|------2-2-----0-0-----4-4--5-4-4-2-2------2-2-----0-0-----4-4-5-4-2-2--0-0--5-5-0-0-3-3-0-0-2-2-3-3-2-2------|
|--0-0-----0-0-----0-0-----------------0-0-----0-0-----0-0----------------------------------------------------|


|---------------------------------------------------------------------------------------------------------------------------|
|-----------------------------------4-4-4---------2----5-5-5----------------------------------------------4-4-4-4-4---------|
|---------------------------------4-4-4-4-4-4---2-2-2--5-5-5----------------------------------------------4-4-4-4-4---------|
|---------------------------------4-4-4-4-4-4---2-2-2--3---3----------------------------------------------4-4-4-4-4---------|
|------2-2-----0-0-----4-4--5-4-4-2-2-----------0----------------2-2----0-0------4-4-5-5-4-----2-2----0-0-2-----------------|
|--0-0-----0-0-----0-0---------------------------------------0-0----0-0-----0-0-------------0-0----0-0--------------3-3-3-0-|

solo
rake
|-12-12-11s12---------------------------------------|----------------------------------------------|
|-12-12-11s12---15--12------------------------------|--7---------7---------7-----------7-----------|
|---------------16-----14-13-12------ repeat twice -|--7-b/r-5---7^-5------7-b/r-5-----7-b/r-5-----|
|---------------17---------------14-----------------|----------7------7------------7-----------7---|
|---------------------------------------------------|----------------------------------------------|
|--------------------------------------------------------------------------------------------------|

|-11s12-12--11s12-12-11s12-12--12---15-15-15-15-15-15--------------------------------------------|
|-11s12-12--11s12-12-11s12-12--12---14-14-14-14-14-14--12----------------------------------------|
|---------------------------------------------------------14-12----------------------------------|
|---------------------------------------------------------------14-------------------------------|
|------------------------------------------------------------------------------------------------|
|------------------------------------------------------------------------------------------------|


|-----------------------------------------------------------------------------------------------|
|----12------12-----12----------------------------3s4-4-3s4----3-5----3s4---3s4-----------------|
|-14^---14^-----14^-----14 b/r-12----14-12--------3s4-4-3s4--4--------3s4---3s4-----------------|
|---------------------------------14--------14----3s4-4-3s4-----------3s4---3s4-----------------|
|---------------------------------------------------------------------1s2---1s2-----------------|
|--------------------------------------------------------------------------------------3-3-0----|


third verse
|------------------------------------------------------------------------------------------------------------|
|------------------------------------------------------------------------------------------------------------|
|------------------------------------------------------------------------------------------------------------|
|------------------------------------------------------------------------------------------------------------|
|------2-2-----0-0-----4-4--5-4-4-2-2------2-2-----0-0-----4-4-5-4-2-2--0-0--5-5-0-0-3-3-0-0-2-2-3-3-2-2-----|
|--0-0-----0-0-----0-0-----------------0-0-----0-0-----0-0---------------------------------------------------|


|----------------------------------------------------------------------------------------------------------------------|
|-----------------------------------4-4-4---------2----5-5-5-----------------------------------4-4-4------2-2----5-5-5-|
|---------------------------------4-4-4-4-4-4---2-2-2--5-5-5---------------------------------4-4-4-4-4-4--2-2-2--5-5-5-|
|---------------------------------4-4-4-4-4-4---2-2-2--5-5-5---------------------------------4-4-4-4-4-4--2-2-2--5-5-5-|
|------2-2-----0-0-----4-4--5-4-4-2-2-----------0------3---3-----2-2----0-0------4-4-5-5-4---2-2----------0------3-----|
|--0-0-----0-0-----0-0---------------------------------------0-0----0-0-----0-0-----------------------------------------|


|---------------------------------------------------------------------------------------------------------------|
|-----------------------------------4-4-4---------2----5-5-5---------------------------5------------------------|
|---------------------------------4-4-4-4-4-4---2-2-2--5-5-5---------------------------4------------------------|
|---------------------------------4-4-4-4-4-4---2-2-2--5-5-5------------------5-4-3-2--6------------------------|
|------2-2-----0-0-----4-4--5-4-4-2-2-----------0------3---3-----2-2-1-1-0-0------------------------------------|
|--0-0-----0-0-----0-0---------------------------------------0-0------------------------------------------------|

if you found this of any use give me feedback! communicatewithulysses@yahoo.com

  AMAZON PICKS


Wreckingpit - The Psychobilly Homepage December 2017
[Credits] [Link] [Contact] [FAQ]