wreckingpit - The Psychobilly Homepage
The Psychobilly Homepage December 15, 2017, 8:12 am
> Home > Tabs > Psycho Akuma (Demonio Psycho) - Hellbound
MAIN MENU
[Bands]
[Concerts]
[Flyers]
[Forum]
[Gallery]
[Links]
[Lyrics]
[News]
[Pictures]
[Reviews]
[Shop]
[Sounds]
[Tabs]
[Tattoos]

Search
wreckingpit.com:

PSYCHOBILLY TAB

Psycho Akuma (Demonio Psycho) - Hellbound

Tabbed by: Jose Antonio Hidalgo Jimenez
Homepage: http://www.myspace.com/hellboundpsychobilly
Instrument: guitar

Fig.1

E G G5 A5 E G A5# B5#

E|------------------------------------|---------------------------------------|

B|------------------------------------|---------------------------------------|
G|------------------------------------|---------------------------------------|
D|------------------------------------|---------------------------------------|
A|2-2-2-2--2-2-2-2--5-5-5-5--7-7-7-7--|2-2-2-2--2-2-2-2--8-8-8-8--9-9-9-9-----|
E|0-0-0-0--3-3-3-3--3-3-3-3--5-5-5-5--|0-0-0-0--3-3-3-3--6-6-6-6--7-7-7-7-----|

PM . . . .

Fig.2 Guitar Riff

E|----------------------------|-------------------------|

B|----------------------------|--------------11—12vvvv--|
G|--9(b)9(b)-7h9h7----7-9 vvvv|--9(b)9(b)--9------------|
D|------------------9---------|-------------------------|
A|----------------------------|-------------------------|
E|----------------------------|-------------------------|

Fig.3 Tapping

E|-------------------------------------|

B|-------------------------------------|
G|--12-t--7-t-9-------9(b)—-12(b)------|
D|-------------------------------------|
A|-------------------------------------|
E|------------------------------------|

Fig.4

E|------------------------|

B|------------------------|
G|------------------------|
D|-2-2-2-2----8-8--8------|
A|-2-2-2-2----8-8--8------|
E|-0-0-0-0----6-6--7------|

PM . . .

Fig.5

E|-------------------|--------------------|

B|-------------------|--------------------|
G|-------------------|--------------------|
D|-9-9-9-9–-10-9-8-7-|-9-9-9-9--9-10-9-8--|
A|-7-7-7-7-----------|-7-7-7-7------------|
E|-------------------|--------------------|

PM . . .



(Words and Music by Jose Antonio Hidalgo Jimenez )

Voice , Guitar , Double Bass and Drum : Antonio hidalgo

Tempo 4/4-140BMP -Tuning Gtr:(E A D G B E) standar EU(MI LA RE SOL SI MI)

Hellbound is a Psychobilly spanish band, This is probably the first Hellbound.. tablature ever put up on the internet. A sound psycho with metal-Hardcore style.

Trancribed by Jose Antonio Hidalgo Jiménez 2005(Balerma-Spain)

Contact Email:Yerbero2@yahoo.es

Or in URL: http://www.myspace.com/hellboundpsychobilly

Dedicated to my wife Maria del Mar from Psycholand!

  AMAZON PICKS


Wreckingpit - The Psychobilly Homepage December 2017
[Credits] [Link] [Contact] [FAQ]