wreckingpit - The Psychobilly Homepage
The Psychobilly Homepage December 12, 2017, 12:36 am
> Home > Tabs > Fireballs - Broccoli Cock
MAIN MENU
[Bands]
[Concerts]
[Flyers]
[Forum]
[Gallery]
[Links]
[Lyrics]
[News]
[Pictures]
[Reviews]
[Shop]
[Sounds]
[Tabs]
[Tattoos]

Search
wreckingpit.com:

PSYCHOBILLY TAB

Fireballs - Broccoli Cock

Tabbed by: Jose Antonio Hidalgo Jiménez
Homepage: http://www.myspace.com/hellboundpsychobilly
Instrument: guitar

Fif.1x4 Intro

E|-------------------------------------|---------------------------------------|

B|-------------------------------------|---------------------------------------|
G|-------------------------------------|---------------------------------------|
D|-------------------------------------|---------------------------------------|
A|6//2----4---5---7--------------2v--|(2)---4---5---7--------------2v----(2)-|
E|-----0----2---3---5----3v---2v---0---|(0)---2---3---5----3v---2v---0-----(0)-|

Fig.2 1°Double Bass riff 2°+ Guitar Riff x2

E|----------------------|-------------------------|

B|----------------------|-------------------------|
G|----------------------|-------------------------|
D|----------------------|----------7--5-5-3-2-----|
A|--(0-0-0)-7--5-5-3-2--|--/5-5-5--7--5-5-3-2-----|
E|---5-5-5--------------|--/5-5-5-----------------|

Fig.3 verse x4 well i got this growth...

E|----------------------------------|

B|----------------------------------|
G|----------------------------------|
D|---------------9--7-7-7-7--5--4---|
A|---7--7-7-7-7--7--5-5-5-5--3--2---|
E|---5--5-5-5-5---------------------|

Fig.4 chorus x4 end fig. x1

...Broccoli cock...

E|-------------------|---------------------------|

B|-------------------|---------------------------|
G|-------------------|---------------------------|
D|---7--5---2--5-----|----------7--5-5--3--2-----|
A|---5--3---2--3-----|--/5-5-5--7--5-5--3--2-----|
E|-------------------|--/5-5-5-------------------|

Fig.3

Fig.4 chorus x4 end fig. x1

...Broccoli cock...

E|-------------------|-----------------------------|

B|-------------------|-----------------------------|
G|-------------------|-----------------------------|
D|---7--5---2--5-----|----------7--5-5--3--2--0----|
A|---5--3---2--3-----|--/5-5-5--7--5-5--3--2--0----|
E|-------------------|--/5-5-5---------------------|

Fig.5

Solo with multi pedal efects (chorus,reverb...)

X4 I guitar x4 II guitar

E|--------------------------------------|-----------------------|

B|--------------------------------------|-----------------------|
G|--------------------------------------|---3-3--3-3--3-3--3-3--|
D|--------2-----2-----2-----2-----------|---3-3--3-3—-3-3--3-3--|
A|--------2h3p2-2h3p2-2h3p2-2h3p2-------|---2-2--2-2--2-2--2-2--|
E|--/-------------------------------4-3-|-----------------------|

Final Scale with tremolo(Blues scale) weee!So i went to..

E|---------------------------------------------------------------|

B|------------------------------------------5-----5-----7-----8--|
G|---------------------5-----5------5---7------7-----7-----------|
D|--------------5---7-----7-----7--------------------------------|
A|--3---5---7----------------------------------------------------|
E|---------------------------------------------------------------|

|=======================================================|

Fig.3 verse

Fig.4....Cock!

And end fig. x1

E|----------------------------------------|

B|----------------------------------------|
G|----------------------------------------|
D|-------------7---5---5---3---2----0//-|
A|---5—-5--5---7---5---5---3---2----0//-|
E|--/5--5--5------------------------------| End.Keep rockin’.

Chords:

E5 F#5 G5 Asus4 A5 A E5 Esus D5 Dsus C5 Csus Bsus B7M

G|--------------|---------------|--------------------------------3--|G

D|--------------|---------------|--9---7----7---5---5---3---2----3--|D
A|--2---4----5--|--5-----7---0--|--7---7----5---5---3---3---2----2--|A
E|--0---2----3--|--5-----5------|---------------------------E5------|E

This is my 4° TAB, so I hope you like it.

This is my version,nery real.

Audio edition for corrections of guitar with Pc software

“Goldwave” and “Music Maker”-to 120 and 100 BPM

Writing TAB in Microsorft Word-Type Font Cournier New.9

Questions, comments, corrections, and additions are always welcome!.

B :bend

Bu-Bd :Bend up to Bend down

h :hammer-on

p :pull-off

v/ // :vibrate-palanca

pb:pre-bend and release

r :release

/ :slide up

//:slide down

+ :harmonic

x/---| :Mute note or Pull motion

= :tremolo




(Words and Music by Eddy Fury,Joe Phantom and Matt Black)

From the last Album: So bad it’s good (1996) Track:12

Guitar by Matt Black

Tempo 4/4-210BMP -Tuning Gtr:(E A D G B E) standar EU(MI LA RE SOL SI MI)

Fireballs is the best Australian Psychobilly band, This is probably the first Fireballs.. tablature ever put up on the internet. A sound psycho with metal style.

Trancribed by Jose Antonio Hidalgo Jiménez 2005(Balerma-Spain)
Email:Yerbero2@yahoo.es
Or in URL: http://www.myspace.com/hellboundpsychobilly

Dedicated to my wife Maria del Mar ..from Psycholand!

  AMAZON PICKS


Wreckingpit - The Psychobilly Homepage December 2017
[Credits] [Link] [Contact] [FAQ]