wreckingpit - The Psychobilly Homepage [ Advertisement Info ]
The Psychobilly Homepage December 16, 2017, 10:26 pm
> Home > Tabs > Meteors, The - Donīt Touch The Bang Bang Fruit
MAIN MENU
[Bands]
[Concerts]
[Flyers]
[Forum]
[Gallery]
[Links]
[Lyrics]
[News]
[Pictures]
[Reviews]
[Shop]
[Sounds]
[Tabs]
[Tattoos]

Search
wreckingpit.com:

PSYCHOBILLY TAB

Meteors, The - Donīt Touch The Bang Bang Fruit

Tabbed by: Dennis Reinke
Instrument: guitar


Q E E Q E E 8x Q E E Q E E
E||------------------------------||----------------------------|
B||------------------------------||----------------------------|
G||*----------------------------*||----------------------------|
D||*--2------------2------------*||--2------------2------------|
A||---0----0g3--4--0-------------||--0----0g3--4--0------------|
E||---------------------0g3--4---||--------------------0g3--4--|


Q E E Q E E Q E E Q E E
----------------------------|----------------------------|
----------------------------|----------------------------|
----------------------------|----------------------------|
--2------------2------------|--2------------2------------|
--0----0g3--4--0------------|--0----0g3--4--0------------|
--------------------0g3--4--|--------------------0g3--4--|


Q E E Q E E Q E E Q E E
----------------------------|----------------------------|
----------------------------|----------------------------|
----------------------------|----------------------------|
----------------------------|--2------------2------------|
--2------------2------------|--0----0g3--4--0----0g3--4--|
--0----0g3--4--0----0g3--4--|----------------------------|


Q E E Q E E Q E E Q E E
----------------------------|----------------------------|
----------------------------|----------------------------|
--2------------2------------|----------------------------|
--0----0g3--4--0------------|--2-------------------------|
--------------------0g4--3--|--0----0g3--4--2------------|
----------------------------|---------------0----0g3--4--|


Q E E E E E E E. S E E E. S E E
---------------------------||---2---2-2--2--2---2-2--2--|
---------------------------||---3---3-3--3--3---3-3--3--|
---------------------------||*--2---2-2--2--2---2-2--2--|
--2------------------------||*--0---0-0--0--0---0-0--0--|
--0----0g3--4--0--2--3--4--||---------------------------|
---------------------------||---------------------------|


Q E E Q E E 3x E. S E E E. S E E
-----------------------------||--2---2-2--2--2---2-2--2--|
-----------------------------||--3---3-3--3--3---3-3--3--|
----------------------------*||--2---2-2--2--2---2-2--2--|
--2------------2------------*||--0---0-0--0--0---0-0--0--|
--0----0g3--4--0----0g3--4---||--------------------------|
-----------------------------||--------------------------|


Q E. S E E E E
-------------------------||
-------------------------||
-------------------------||
-------------------------||
--2----2---2-2--2--2--2--||
--0----0---0-0--0--0--0--||




Duration Legend
---------------
W - whole
H - half
Q - quarter
E - 8th
S - 16th
T - 32nd
X - 64th
. - note dotted
|-n-| - n-tuplets


Tablature Legend
----------------

g - grace note

  AMAZON PICKS


Wreckingpit - The Psychobilly Homepage December 2017
[Credits] [Link] [Contact] [FAQ]