wreckingpit - The Psychobilly Homepage
The Psychobilly Homepage December 13, 2017, 12:50 pm
> Home > Tabs > Nekromantix - Generation 666
MAIN MENU
[Bands]
[Concerts]
[Flyers]
[Forum]
[Gallery]
[Links]
[Lyrics]
[News]
[Pictures]
[Reviews]
[Shop]
[Sounds]
[Tabs]
[Tattoos]

Search
wreckingpit.com:

PSYCHOBILLY TAB

Nekromantix - Generation 666

Tabbed by: Sam Stephens
Instrument: guitar

Intro, and part before solo, and ending.
e|---------------------------------------------------------------|
B|---------------------------------------------------------------|
G|----7-6---------7-6--------------------------------------------|
D|-5--7-6--8-7-5--7-6-8-7-8-7-5----------------------------------|
A|-5--5-4--8-7-5--5-4-8-7-8-7-5----------------------------------|
E|-3-------6-5-3------6-5-6-5-3--etc...--------------------------|


verse.
(before vocals)
e|---------------------------------------------------------------|
B|---------3-5---3-5-5b-5-3--------------------------------------|
G|---------3-5---3-5-5b-5-3--------------------------------------|
D|---5---4-------------------------------------------------------|
A|---5-5---------------------------------------------------------|
E|-3-----------3--------------etc...-----------------------------|

verse.
(with vocals)
e|---------------------------------------------------------------|
B|---------------------------------------------------------------|
G|--------3-5b-5-3-----------------------------------------------|
D|-5-4-5--3-5b-5-3-----------------------------------------------|
A|-5-5-5--1-3b-3-1-----------------------------------------------|
E|-3-2-3---------------etc...------------------------------------|

chorus bar chords: Eb, D7, Gm, Bb

solo.
e|-----------5-6----------------------------5-6------------------|
B|-----8---7-----8--------------------8---7-----8----------------|
G|-6/7---7-------7-9-7-9-b-9------6/7---7-------7-9--7-----------|
D|---------------------10b-10-8-5-----------------10-8-----------|
A|---------------------------------------------------------------|
E|---------------------------------------------------------------|

e|---------------10-----8-10---6-8-8b-8p6------------5-6-6/8-----|
B|------------/8----8-7------8------------8----8---7-------------|
G|-9-b-9-b-7--------------------------------/7---7---------------|
D|-10b-10b-8-----------------------------------------------------|
A|---------------------------------------------------------------|
E|---------------------------------------------------------------|

e|-6p5-6p5-------------------------------------------------------|
B|---------8-----------------------------------------------------|
G|---------------------------------------------------------------|
D|---------------------------------------------------------------|
A|---------------------------------------------------------------|
E|---------------------------------------------------------------|

e|---------------------------------------------------------------|
B|---------------------------------------------------------------|
G|---------------------------------------------------------------|
D|---------------------------------------------------------------|
A|---------------------------------------------------------------|
E|---------------------------------------------------------------|

e|---------------------------------------------------------------|
B|---------------------------------------------------------------|
G|---------------------------------------------------------------|
D|---------------------------------------------------------------|
A|---------------------------------------------------------------|
E|---------------------------------------------------------------|

e|---------------------------------------------------------------|
B|---------------------------------------------------------------|
G|---------------------------------------------------------------|
D|---------------------------------------------------------------|
A|---------------------------------------------------------------|
E|---------------------------------------------------------------|

| / slide up
| slide down
| h hammer-on
| p pull-off
| ~ vibrato
| + harmonic
| x Mute note
| b Bend, i'm not telling you how far just listen to the song

  AMAZON PICKS


Wreckingpit - The Psychobilly Homepage December 2017
[Credits] [Link] [Contact] [FAQ]