wreckingpit - The Psychobilly Homepage
The Psychobilly Homepage December 16, 2017, 7:05 am
> Home > Tabs > Chuck and the Hulas - Little Demon
MAIN MENU
[Bands]
[Concerts]
[Flyers]
[Forum]
[Gallery]
[Links]
[Lyrics]
[News]
[Pictures]
[Reviews]
[Shop]
[Sounds]
[Tabs]
[Tattoos]

Search
wreckingpit.com:

PSYCHOBILLY TAB

Chuck and the Hulas - Little Demon

Tabbed by: Zerk
Instrument: bass

(INTRO)
G-------------0-2------------------------
D-----0-2---2---------0-2-0--------------
A---2-----3---------2-------3-2-0--------
E-3---------------3----------------------

---

Down in the valley on a foggy little rock
Stood a crazy little demon blowing his top
Fire in his eyes and smoke from his head
You gotta be real cool to hear the words he said
G----------------------------------------
D-------------------------------------0-1
A-----------------------------------2----
E-3-------3-------3---3---3---3---3------

---

He said (muh-bling/scatting)
G-----0-2-3-2-0--------------------------
D---2-----------2-----0-2-3-2-0----------
A-3-----------------2-----------2--------
E-----------------3----------------------

That cat was mad!
G----------------------------------------
D-0-2-3-2-0-----------0-2-3-2-0----------
A-----------3-2-0---2-----------2--------
E-----------------3----------------------

---

He had steam in his soul for the one he loved so
He had death on his mind 'cause my demon let him go
He gonna run through the world 'til we understand his pain
Somebody help him get his demon back again
G----------------------------------------
D-------------------------------------0-1
A-----------------------------------2----
E-3-------3-------3---3---3---3---3------

---

He said (muh-bling/scatting)
G-----0-2-3-2-0--------------------------
D---2-----------2-----0-2-3-2-0----------
A-3-----------------2-----------2--------
E-----------------3----------------------

That cat was mad!
G----------------------------------------
D-0-2-3-2-0-----------0-2-3-2-0----------
A-----------3-2-0---2-----------2--------
E-----------------3----------------------

---

(GUITAR SOLO PLAYED)
G-0---0---0-2-0---0---0---0--------------
D---0---0-------3---0---0---3-2-0--------
A----------------------------------------
E----------------------------------------

G-----0-2-3-2-0--------------------------
D---2-----------2-----0-2-3-2-0----------
A-3-----------------2-----------2--------
E-----------------3----------------------

G----------------------------------------
D-0-2-3-2-0-----------0-2-3-2-0----------
A-----------3-2-0---2-----------2--------
E-----------------3----------------------

---

He made the sky turn green, he made the grass turn red,
He even put pretty hair on Grandma's bald head
He made the moon back up, he even pushed back time
He took the frutti out of tutti, he had the devil drinkin' wine
G----------------------------------------
D-------------------------------------0-1
A-----------------------------------2----
E-3-------3-------3---3---3---3---3------

---

(muh-bling/scatting)
G-----0-2-3-2-0--------------------------
D---2-----------2-----0-2-3-2-0----------
A-3-----------------2-----------2--------
E-----------------3----------------------

That cat was mad!
G----------------------------------------
D-0-2-3-2-0-----------0-2-3-2-0----------
A-----------3-2-0---2-----------2--------
E-----------------3----------------------

---

(SAX SOLO PLAYED)
G-0---0---0-2-0---0---0---0--------------
D---0---0-------3---0---0---3-2-0--------
A----------------------------------------
E----------------------------------------

G-----0-2-3-2-0--------------------------
D---2-----------2-----0-2-3-2-0----------
A-3-----------------2-----------2--------
E-----------------3----------------------

G----------------------------------------
D-0-2-3-2-0-----------0-2-3-2-0----------
A-----------3-2-0---2-----------2--------
E-----------------3----------------------

---

Demon felt good, 'cause he finally got across,
To the crazy little demon that the woman still the boss
Down in the valley on the foggy little rock
You can still hear the demon blowing his top
G----------------------------------------
D-------------------------------------0-1
A-----------------------------------2----
E-3-------3-------3---3---3---3---3------

---

He said (muh-bling/scatting)
G-----0-2-3-2-0--------------------------
D---2-----------2-----0-2-3-2-0----------
A-3-----------------2-----------2--------
E-----------------3----------------------

That cat was mad!
G----------------------------------------
D-0-2-3-2-0-----------0-2-3-2-0----------
A-----------3-2-0---2-----------2--------
E-----------------3----------------------

---

He pushed back night, brought in afternoon,
He even made Leap Year jump over the moon,
He took the Fourth of july and put it in May
He took this morning put it back yesterday
G----------------------------------------
D-------------------------------------0-1
A-----------------------------------2----
E-3-------3-------3---3---3---3---3------

---

(muh-bling/scatting)
G-----0-2-3-2-0--------------------------
D---2-----------2-----0-2-3-2-0----------
A-3-----------------2-----------2--------
E-----------------3----------------------

That cat was mad!
G----------------------------------------
D-0-2-3-2-0-----------0-2-3-2-0----------
A-----------3-2-0---2-----------2--------
E-----------------3----------------------

  AMAZON PICKS


Wreckingpit - The Psychobilly Homepage December 2017
[Credits] [Link] [Contact] [FAQ]