wreckingpit - The Psychobilly Homepage
The Psychobilly Homepage December 12, 2017, 2:09 pm
> Home > Tabs > Tiger Army - Never Die
MAIN MENU
[Bands]
[Concerts]
[Flyers]
[Forum]
[Gallery]
[Links]
[Lyrics]
[News]
[Pictures]
[Reviews]
[Shop]
[Sounds]
[Tabs]
[Tattoos]

Search
wreckingpit.com:

PSYCHOBILLY TAB

Tiger Army - Never Die

Tabbed by: Zerk
Instrument: bass

(INTRO)

"When the slumber of forever's called me home...."
G----------------------------------------
D-0~~~~~~~~------------------------------
A----------0~~~~~~~~---------------------
E----------------------------------------

===

(MAIN RIFF)

"I will not be gone, oh no you'll never be alone"
G---1-2-3-4-3-2-1------------------------
D-2-----------------1-2-3-4-3-2-1--------
A-----------------2----------------------
E----------------------------------------

"My words will come to you cross time and space"
G-----0-1-2-1-0--------------------------
D-0-4-----------4-----0-1-2-1-0----------
A-----------------0-4-----------4--------
E----------------------------------------

"You'll know where to find me and I'll be there..."
G---1-2-3-4-3-2-1------------------------
D-2-----------------1-2-3-4-3-2-1--------
A-----------------2----------------------
E----------------------------------------

===

G-------------------------
D-------------------0-0-0-
A-0-0-0-3-3-3-1-1-1-------
E-------------------------

I'll be there!
G-------------------------
D-------------------0-0-0-
A-0-0-0-3-3-3-1-1-1-------
E-------------------------

===

"Listen to the winds at night"
G-----0-1-2-1-0--------------------------
D-0-4-----------4-----0-1-2-1-0----------
A-----------------0-4-----------4--------
E----------------------------------------

"You might hear me call your name"
G---1-2-3-4-3-2-1------------------------
D-2-----------------1-2-3-4-3-2-1--------
A-----------------2----------------------
E----------------------------------------

"I once felt so alone but now I'm home"
G-----0-1-2-1-0--------------------------
D-0-4-----------4-----0-1-2-1-0----------
A-----------------0-4-----------4--------
E----------------------------------------

"I know that there is something beyond..."
G---1-2-3-4-3-2-1------------------------
D-2-----------------1-2-3-4-3-2-1--------
A-----------------2----------------------
E----------------------------------------

===

G-------------------------
D-------------------0-0-0-
A-0-0-0-3-3-3-1-1-1-------
E-------------------------

G-------------------------
D-------------------0-0-0-
A-0-0-0-3-3-3-1-1-1-------
E-------------------------

G-------------------------
D-------------0~~~--------
A-0~~~3~~~1~~~------------
E-------------------------

G-------------------------
D-------------0~~~--------
A-0~~~3~~~1~~~------------
E-------------------------

===

(QUIET PART)

G-----0-1-2-1-0--------------------------
D-0-4-----------4-----0-1-2-1-0----------
A-----------------0-4-----------4--------
E----------------------------------------

G---1-2-3-4-3-2-1------------------------
D-2-----------------1-2-3-4-3-2-1--------
A-----------------2----------------------
E----------------------------------------

G-----0-1-2-1-0--------------------------
D-0-4-----------4-----0-1-2-1-0----------
A-----------------0-4-----------4--------
E----------------------------------------

G---1-2-3-4-3-2-1------------------------
D-2-----------------1-2-3-4-3-2-1--------
A-----------------2----------------------
E----------------------------------------

===

"The words I speak today shall outlive me"
G----------------------------------------
D-0~~~~~~~~~~~---------------------------
A-------------0~~~~~~~~~~~---------------
E----------------------------------------

"I call on forces that send chills down your spine"
G----------------------------------------
D-2~~~~~~~~~~~---------------------------
A-------------2~~~~~~~~~~~---------------
E----------------------------------------

"For I long to drink of immortality"
G----------------------------------------
D-0~~~~~~~~~~~---------------------------
A-------------0~~~~~~~~~~~---------------
E----------------------------------------

"Of this nighttime stars, they speak to me."
G----------------------------------------
D-2~~~~~~~~~~~---------------------------
A-------------2~~~~~~~~~~~---------------
E----------------------------------------

"For we all shall someday part the veil"
G----------------------------------------
D-0-0-0-0-0-0----------------------------
A-------------0-0-0-0-0-0----------------
E----------------------------------------

"And cross thru to the other side"
G----------------------------------------
D-2-2-2-2-2-2----------------------------
A-------------2-2-2-2-2-2----------------
E----------------------------------------

"In one way or another, My soul and heart will never die"
G----------------------------------------
D-0-0-0-0-0-0----------------------------
A-------------0-0-0-0-0-0----------------
E----------------------------------------

"Die in death as in life... I will arise."
G----------------------------------------
D-2-2-2-2-2-2----------------------------
A-------------2-2-2-2-2-2----------------
E----------------------------------------

===

G-------------------------
D-------------------0-0-0-
A-0-0-0-3-3-3-1-1-1-------
E-------------------------

G-------------------------
D-------------------0-0-0-
A-0-0-0-3-3-3-1-1-1-------
E-------------------------

"NEVER! DIE! NEVER! DIE! NEVER! DIE!"

===

"NEVER DIE!"
(PLAY 4 TIMES HARD)
G----------------------------------------
D-----------------3---3---0---0----------
A-------------------3---3---0---0--------
E-0xx-0xx-1xx-0xx------------------------

"All hail the darkness"
G----------------------------------------
D----------------------------------------
A----------------------------------------
E-0~~~~~~~~~~~~~~~~0-0-0-1-0-0-----------

"in her majestic glory"
G-0---0---0---0---0-------0--------------
D---0---0---0---0---1-0-1---1-0-1--------
A----------------------------------------
E----------------------------------------

"She was always my true love"
G-----0-1-2-1-0--------------------------
D-0-4-----------4-----0-1-2-1-0----------
A-----------------0-4-----------4--------
E----------------------------------------

"I never quite belonged here."
G----------------------------------------
D-------------------4---4---4---4--------
A-2xx-2xx-2xx-2xx-2---2---2---2----------
E----------------------------------------

"Don't fall so far from grace"
G----------------------------------------
D----------------------------------------
A----------------------------------------
E-0xx-0xx-0xx-0xx-0xx-0xx-1xx-0xx--------

"Please,will you keep me in your memory?"
G-0---0---0---0---0---0---0---0----------
D---0---0---0---0---0---0---0---0--------
A----------------------------------------
E----------------------------------------

"A little place for me in your hearts"
G----------------------------------------
D-0---0---0---0---0---0---0---0----------
A---0---0---0---0---0---0---0---0--------
E----------------------------------------

"Eternal soul, That never dies"
G----------------------------------------
D---4---4---4---4---4---4---4---4--------
A-2---2---2---2---2---2---2---2----------
E----------------------------------------

(X3)
G-----------------0---0------------------
D-------------------0---0-2---2----------
A---------------------------2---2--------
E-1xx-1xx-2xx-1xx------------------------

G-----------------0-0-0-----0------------
D-----------------------2-2---4~~~~~~~~~~
A----------------------------------------
E-1xx-1xx-2xx-1xx------------------------

  AMAZON PICKS


Wreckingpit - The Psychobilly Homepage December 2017
[Credits] [Link] [Contact] [FAQ]