wreckingpit - The Psychobilly Homepage
The Psychobilly Homepage December 14, 2017, 7:46 am
> Home > Tabs > Tiger Army - Nocturnal
MAIN MENU
[Bands]
[Concerts]
[Flyers]
[Forum]
[Gallery]
[Links]
[Lyrics]
[News]
[Pictures]
[Reviews]
[Shop]
[Sounds]
[Tabs]
[Tattoos]

Search
wreckingpit.com:

PSYCHOBILLY TAB

Tiger Army - Nocturnal

Tabbed by: Zerk
Emailaddress: kat_killer@hotmail.com
Instrument: bass

(INTRO RIFF) play 4x
G----------------------------------------
D-4-2-0---4-2-0---0-0-0------------------
A-------4-------4-------2-2-2------------
E----------------------------------------

G----------------------------------------
D----------------------------------------
A-4-4-4--4-4-4--4-4-4--4-4-4-------------
E----------------------------------------

===

(GUITAR SOLO STARTS)
G----------------------------------------
D-4-4-4--4-4-4--0-0-0-------4-4-4--4-4-4-------2-2-2---------
A---------------------2-2-2--------------0-0-0-----
E----------------------------------------

G----------------------------------------
D-4-4-4--4-4-4--0-0-0--------------------
A---------------------2-2-2--------------
E----------------------------------------

G----------------------------------------
D----------------------------------------
A-4-4-4--4-4-4--0-0-0--0-0-0--0-0-0--0-0-0----
E----------------------------------------

===

You have ignored us. We've become nocturnal.
Pushed out of the day into the night.
G----------------------------------------
D-4-4-4--4-4-4--0-0-0-------4-4-4--4-4-4-------2-2-2---------
A---------------------2-2-2--------------0-0-0-----
E----------------------------------------

We are invisible but we can see you.
Night vision, don't need the light.
G----------------------------------------
D-4-4-4--4-4-4--0-0-0-------0-0-0--0-0-0--2-2-2--2-2-2--2-2-2--2-2-2
A---------------------2-2-2--------------
E----------------------------------------

===

(CHORUS)

I said
We came from nowhere,
G---------------------------
D---------------------2xx-4-
A-2-2-2--0--2-----4xx-------
E-------------2xx-----------

But we're not nothing.
G---------------------------
D-----------------4xx-0xx---
A-2-2-2--0----------------2-
E----------3--2xx-----------

You better beware.
G---------------------------
D---------------------2xx-4-
A-2-2-2--0--2-----4xx-------
E-------------2xx-----------

The nocturnal in shadows dwell in hell
Psycho!
G----------------------------------------
D-0-0-0--0-0-0--2-2-2--2-2-2-------------
A----------------------------------------
E----------------------------------------

===

G----------------------------------------
D-4-2-0---4-2-0---0-0-0------------------
A-------4-------4-------2-2-2------------
E----------------------------------------

G----------------------------------------
D-4-2-0---4-2-0---0-0-0------------------
A-------4-------4-------2-2-2------------
E----------------------------------------

G-------2-2-2----------------------------
D-4-4-4-------0-0-0----------------------
A-------------------2-2-2----------------
E----------------------------------------

G----------------------------------------
D-4-2-0---4-2-0---0-0-0------------------
A-------4-------4-------2-2-2--4-4-4--4-4-4--4-4-4--4-4-4-
E----------------------------------------

===

Gone...
All that's come before. We are the nocturnal.
Creatures at the bottom of the sea if they could rise.
G----------------------------------------
D-4-4-4--4-4-4--0-0-0-------4-4-4--4-4-4-------2-2-2---------
A---------------------2-2-2--------------0-0-0-----
E----------------------------------------

Our faces poison pale, crawl evolution's hellish trail
And wait for the night to arrive.
G----------------------------------------
D-4-4-4--4-4-4--0-0-0-------0-0-0--0-0-0--2-2-2--2-2-2--2-2-2--2-2-2
A---------------------2-2-2--------------
E----------------------------------------

===

I said
We came from nowhere,
G---------------------------
D---------------------2xx-4-
A-2-2-2--0--2-----4xx-------
E-------------2xx-----------

But we're not nothing.
G---------------------------
D-----------------4xx-0xx---
A-2-2-2--0----------------2-
E----------3--2xx-----------

You better beware.
G---------------------------
D---------------------2xx-4-
A-2-2-2--0--2-----4xx-------
E-------------2xx-----------

The nocturnal in shadows dwell in hell
G----------------------------------------
D-0-0-0--0-0-0--2-2-2--2-2-2-------------
A----------------------------------------
E----------------------------------------

I said
We came from nowhere,
G---------------------------
D---------------------2xx-4-
A-2-2-2--0--2-----4xx-------
E-------------2xx-----------

But we're not nothing.
G---------------------------
D-----------------4xx-0xx---
A-2-2-2--0----------------2-
E----------3--2xx-----------

You better beware.
G---------------------------
D---------------------2xx-4-
A-2-2-2--0--2-----4xx-------
E-------------2xx-----------

The nocturnal in shadows dwell in hell
G----------------------------------------
D-0-0-0--0-0-0--2-2-2--2-2-2-------------
A----------------------------------------
E----------------------------2~~~~~~~~~~~

===

(OUTRO)
G----------------------------------------
D-----4-0xx------------------------------
A-----------2xx-----0xx-----0xx----------
E-2-------------2xx-----2xx--------------

G----------------------------------------
D-----4xx-0xx----------------------------
A-------------2xx-----0xx-----0xx--------
E-2xx-------------2xx-----2xx------------

G-1xx-2xx-1xx-2xx-0xx-2xx-0xx-2xx--------
D----------------------------------------
A----------------------------------------
E----------------------------------------

G----------------------------------------
D-----4xx-0xx----------------------------
A-------------2xx-----0xx-----0xx--------
E-2xx-------------2xx-----2xx-----2~~~~~~

  AMAZON PICKS


Wreckingpit - The Psychobilly Homepage December 2017
[Credits] [Link] [Contact] [FAQ]