wreckingpit - The Psychobilly Homepage
The Psychobilly Homepage December 11, 2017, 7:26 am
> Home > Tabs > Demented are Go - Cast Iron Arm
MAIN MENU
[Bands]
[Concerts]
[Flyers]
[Forum]
[Gallery]
[Links]
[Lyrics]
[News]
[Pictures]
[Reviews]
[Shop]
[Sounds]
[Tabs]
[Tattoos]

Search
wreckingpit.com:

PSYCHOBILLY TAB

Demented are Go - Cast Iron Arm

Tabbed by: Zerk
Emailaddress: kat_killer@hotmail.com
Instrument: bass

(INTRO)
G----------------------------------------
D----------------------------------------
A-0-0-0--0-0-0--0-0-0--0-0-0--0-0-0------
E----------------------------------------

G----------------------------------------
D-----2--------2--------2--------2-------
A-0-3---3--0-3---3--0-3---3--0-3---3-----
E----------------------------------------

===

The other night me and my girl went bowling
G----------------------------------------
D-----2--------2--------2----------------
A-0-3---3--0-3---3--0-3---3--0-2-3-4-----
E----------------------------------------

G-----2--------2-------------------------
D-0-3---3--0-3---3------2--------2-------
A-------------------0-3---3--0-3---3-----
E----------------------------------------

G----------------------------------------
D-2-2-2--0-0-0---------------------------
A---------------0-0-0-0------------------
E-----------------------0-3-0-3----------

===

When we walked in she turned every head in the place
G----------------------------------------
D-----2--------2--------2----------------
A-0-3---3--0-3---3--0-3---3--0-2-3-4-----
E----------------------------------------

G-----2--------2-------------------------
D-0-3---3--0-3---3------2--------2-------
A-------------------0-3---3--0-3---3-----
E----------------------------------------

A cool kid walked up and made a play for my girl
I said FUCK OFF AND DIE!
G-----------------
D-2-2-2--0-0-0----
A---------------0-
E-----------------

===

Dont mess with me I got a cast iron arm
G----------------------------------------
D-----2--------2--------2----------------
A-0-3---3--0-3---3--0-3---3--0-2-3-4-----
E----------------------------------------

G-----2--------2-------------------------
D-0-3---3--0-3---3------2--------2-------
A-------------------0-3---3--0-3---3-----
E----------------------------------------

G----------------------------------------
D-2-2-2--0-0-0---------------------------
A---------------0-0-0-0------------------
E-----------------------0-3-0-3----------

===

(SOLO)
G---------------0-2-0--------------------
D-----0-1-2-3-4-------4-3-2-1-0----------
A-0-3---------------------------3--------
E----------------------------------------

G-----------------2---2---2---2----------
D-0-3-0-3-0-3-0-3---2---2---2---2--------
A----------------------------------------
E----------------------------------------

G----------------------------------------
D-2---2---2---2--------------------------
A---2---2---2---2--0xx-3xx-0-3-0-3-------
E----------------------------------------

===

NOTE:
everything is the same for the rest of the song except for this little part right at the end:

G----------------------------------------
D-2-2-2--0-0-0---------------------------
A---------------0-0-0-0------------------
E-----------------------0-2-4-5~~~~~~~~~~

  AMAZON PICKS


Wreckingpit - The Psychobilly Homepage December 2017
[Credits] [Link] [Contact] [FAQ]