wreckingpit - The Psychobilly Homepage
The Psychobilly Homepage December 14, 2017, 8:39 pm
> Home > Tabs > Quakes, The - Psychobilly Jeckyll and Mr. Hyde
MAIN MENU
[Bands]
[Concerts]
[Flyers]
[Forum]
[Gallery]
[Links]
[Lyrics]
[News]
[Pictures]
[Reviews]
[Shop]
[Sounds]
[Tabs]
[Tattoos]

Search
wreckingpit.com:

PSYCHOBILLY TAB

Quakes, The - Psychobilly Jeckyll and Mr. Hyde

Tabbed by: juan macias
Instrument: guitar

e||---------0-----0---------|
b||---------0-----0---------|
g||---------2-----1---------|
d||---7-----3-----2---------|
a||---7-----3-----2---------|
E||---5-----0-----0---------|


Cause I'm a psychobilly Jekyll & Mr. Hyde

e||---------0---------------|
b||---------1---------------|
g||---------2---------------|
d||---------2---------------|
a||---------0---------------|
E||-------------------------|



e||---0--0---0---0---0-------------------------------|
b||---1--1---0---0---0-------------------------------|
g||---2--2---0---2---1-------------------------------|
d||---2--2---2---3---2-------------------------------|
a||---0--0---2---3---2-------------------------------|
E||----------0---0---0-------------------------------|



e||---------0-----0----------------------------------|
b||---1-----0-----0----------------------------------|
g||---2-----0-----2----x2----------------------------|
d||---2-----2-----3----------------------------------|
a||---0-----2-----3----------------------------------|
E||---------0-----0----------------------------------|



e||---0--0---0---0---0-------------------------------|
b||---1--1---0---0---0-------------------------------|
g||---2--2---0---2---1-------------------------------|
d||---2--2---2---3---2-------------------------------|
a||---0--0 ---2---3---2-------------------------------|
E||----------0---0---0-------------------------------|



e||------0---------------|
b||------1---------------|
g||------2---------------|
d||------2---------------|
a||------0---------------|
E||----------------------|


e||-0-------------0-----|
b||---1---------1-------|
g||-----2----2----------|
d||-------2-------------|
a||---------------------|
E||---------------------|


e||---------0-----0---------|
b||---------0-----0---------|
g||---------2-----1---------|
d||---7-----3-----2---------|
a||---7-----3-----2---------|
E||---5-----0-----0---------|


When I hear the sound of the slappin' bass
A change comes over me and hair grows on my face
Now you're gonna see my other side
Cause I'm a psychobilly Jekyll & Mr. Hyde

The guitar twangs and the drums it bangs
My teeth turn into long white fangs
I told you I was normal but man I lied
Cause I'm psychobilly Jekyll & Mr. Hyde


When I hear that sound I gotta get inside
I can't let any one see man I gotta hide
I told you I was normal but man I lied
Cause I'm psychobilly Jekyll & Mr. Hyde


  AMAZON PICKS


Wreckingpit - The Psychobilly Homepage December 2017
[Credits] [Link] [Contact] [FAQ]