wreckingpit - The Psychobilly Homepage
The Psychobilly Homepage December 13, 2017, 1:21 am
> Home > Tabs > Kings of Nuthin - Judge nor Jury
MAIN MENU
[Bands]
[Concerts]
[Flyers]
[Forum]
[Gallery]
[Links]
[Lyrics]
[News]
[Pictures]
[Reviews]
[Shop]
[Sounds]
[Tabs]
[Tattoos]

Search
wreckingpit.com:

PSYCHOBILLY TAB

Kings of Nuthin - Judge nor Jury

Tabbed by: Florian Tannert
Emailaddress: EvilMantis@web.de
Instrument: bass

Intro/Strophe:
G|----------------|----------------|----------------|-------------------------------
D|---------1-0----|-----0-3--------|----------------|---------3---3-----------------
A|-----0-3-----3-0|-1-1-----1---1-2|-3-3---3-3-1----|-----0-3---3---3---------------
E|-1-1------------|-----------1----|-----3-------0-3|-1-1---------------------------


Bridge
G|--------------------------------------------------------------------------|
D|--------------------------------------------------------------------------|
A|-1-1-1-1-1-1-1--3-3-3-3-3-3-3-3--1-1-1-1-1-1-1--5-5-5-5-5-5-5-5-----------|
E|--------------------------------------------------------------------------|


Refrain:
G|-------------------2------2--------------------2--------2----|
D|---------------2-5-----2-5------------------2-5-----2-5------|
A|-------------3-------3-------1r-1r-1r-1r--3-------3----------|
E|1r-1r-1r-1r--------------------------------------------------|

G|-------------------2------2--------------------2--------2----|
D|---------------2-5-----2-5------------------2-5-----2-5------|
A|-------------3-------3-------1r-1r-1r-1r--3-------3----------|
E|1r-1r-1r-1r--------------------------------------------------|




Intro 3x
Bridge 1x
Refrain 1x
Intro 2x
Bridge 1x
Solo 1x
Refrain 2x

Song ends on F

  AMAZON PICKS


Wreckingpit - The Psychobilly Homepage December 2017
[Credits] [Link] [Contact] [FAQ]