wreckingpit - The Psychobilly Homepage
The Psychobilly Homepage December 18, 2017, 1:10 am
> Home > Tabs > Cramps, The - Sheena's in a Goth Gang
MAIN MENU
[Bands]
[Concerts]
[Flyers]
[Forum]
[Gallery]
[Links]
[Lyrics]
[News]
[Pictures]
[Reviews]
[Shop]
[Sounds]
[Tabs]
[Tattoos]

Search
wreckingpit.com:

PSYCHOBILLY TAB

Cramps, The - Sheena's in a Goth Gang

Tabbed by: Kean Eggett
Instrument: guitar

verse
E----0---0-----0---0-0-0-3-0--
G--0---0---0-3---------------3
B-----------------------------
D-----------------------------
A-----------------------------
E-----------------------------

E
She's diggin up the graveyard
black lips and toenails
a brand-new bat wing
at the county jail
like Tammy Trapeze
the dead acrobat
ooh i dig her deeply when
she swings like that

chorus
E----------5-5-3-5 --5-5-3-3-5-5-0-
G----------5-5-3-5 --5-5-3-3-5-5-0-
B----------6-6-4-6 X2 --6-6-4-4-6-6-2- X2
D--7-7-5-7-7-7-5-7 --7-7-5-5-7-7-3-
A--7-7-5-7-------- --7-7-5-5-7-7-3-
E--5-5-3-5-------- --5-5-3-3-5-5-0-

sheena's in a goth gang
sheena's in a goth gang
sheena's in a goth gang now

mixed up women
do you have one in your house?
she's in the forbidden
vampire underground
in the cold turkey cobra
snakes in her hair
ooh she looks so macabre
with her cobweb stare

chorus

solo
E--------------12-10-------------- ------------------------------------------
B--5-5-5-5-8-5-------12-10-10-8-8- --10-10-10-10-8-10b12-12-12-12-12b10-10-8-
G--------------------------------- X2 ------------------------------------------
D--------------------------------- ------------------------------------------
A--------------------------------- ------------------------------------------
E--------------------------------- ------------------------------------------
then the first part again...

chorus

sneer on her face
like the mona lisa
a cork hole in her nose
like the sphinx at Giza

chorus
sheena's in a goth gang now
sheena's in a goth gang now

  AMAZON PICKS


Wreckingpit - The Psychobilly Homepage December 2017
[Credits] [Link] [Contact] [FAQ]